ISO-10303-21;
HEADER;
/* Generated by software containing ST-Developer
 * from STEP Tools, Inc. (www.steptools.com) 
 */

FILE_DESCRIPTION(
/* description */ (''),
/* implementation_level */ '2;1');

FILE_NAME(
/* name */ 
'C:\\Users\\Lars\\Documents\\Inventor\\Projekt 65\\410 002 00_step.stp',

/* time_stamp */ '2018-06-15T08:56:22+02:00',
/* author */ ('Lars'),
/* organization */ ('AVAC Vakuumteknik AB'),
/* preprocessor_version */ 'ST-DEVELOPER v17',
/* originating_system */ 'Autodesk Inventor 2018',
/* authorisation */ '');

FILE_SCHEMA (('AUTOMOTIVE_DESIGN { 1 0 10303 214 3 1 1 }'));
ENDSEC;

DATA;
#10=MECHANICAL_DESIGN_GEOMETRIC_PRESENTATION_REPRESENTATION('',(#13),#369);
#11=SHAPE_REPRESENTATION_RELATIONSHIP('SRR','None',#376,#12);
#12=ADVANCED_BREP_SHAPE_REPRESENTATION('',(#14),#368);
#13=STYLED_ITEM('',(#385),#14);
#14=MANIFOLD_SOLID_BREP('Solid1',#205);
#15=CYLINDRICAL_SURFACE('',#231,9.525);
#16=CYLINDRICAL_SURFACE('',#237,5.9);
#17=FACE_BOUND('',#41,.T.);
#18=FACE_BOUND('',#42,.T.);
#19=PLANE('',#229);
#20=PLANE('',#240);
#21=PLANE('',#241);
#22=PLANE('',#242);
#23=PLANE('',#243);
#24=PLANE('',#244);
#25=PLANE('',#245);
#26=PLANE('',#246);
#27=FACE_OUTER_BOUND('',#39,.T.);
#28=FACE_OUTER_BOUND('',#40,.T.);
#29=FACE_OUTER_BOUND('',#43,.T.);
#30=FACE_OUTER_BOUND('',#44,.T.);
#31=FACE_OUTER_BOUND('',#45,.T.);
#32=FACE_OUTER_BOUND('',#46,.T.);
#33=FACE_OUTER_BOUND('',#47,.T.);
#34=FACE_OUTER_BOUND('',#48,.T.);
#35=FACE_OUTER_BOUND('',#49,.T.);
#36=FACE_OUTER_BOUND('',#50,.T.);
#37=FACE_OUTER_BOUND('',#51,.T.);
#38=FACE_OUTER_BOUND('',#52,.T.);
#39=EDGE_LOOP('',(#139,#140,#141,#142,#143));
#40=EDGE_LOOP('',(#144,#145,#146,#147));
#41=EDGE_LOOP('',(#148));
#42=EDGE_LOOP('',(#149));
#43=EDGE_LOOP('',(#150,#151,#152,#153,#154,#155));
#44=EDGE_LOOP('',(#156,#157,#158,#159,#160));
#45=EDGE_LOOP('',(#161,#162,#163,#164,#165,#166));
#46=EDGE_LOOP('',(#167,#168));
#47=EDGE_LOOP('',(#169,#170));
#48=EDGE_LOOP('',(#171,#172,#173,#174));
#49=EDGE_LOOP('',(#175,#176,#177,#178));
#50=EDGE_LOOP('',(#179,#180,#181,#182));
#51=EDGE_LOOP('',(#183,#184,#185,#186));
#52=EDGE_LOOP('',(#187,#188,#189,#190));
#53=LINE('',#314,#69);
#54=LINE('',#321,#70);
#55=LINE('',#323,#71);
#56=LINE('',#325,#72);
#57=LINE('',#326,#73);
#58=LINE('',#331,#74);
#59=LINE('',#337,#75);
#60=LINE('',#343,#76);
#61=LINE('',#351,#77);
#62=LINE('',#353,#78);
#63=LINE('',#354,#79);
#64=LINE('',#357,#80);
#65=LINE('',#358,#81);
#66=LINE('',#361,#82);
#67=LINE('',#362,#83);
#68=LINE('',#364,#84);
#69=VECTOR('',#253,10.025);
#70=VECTOR('',#260,10.);
#71=VECTOR('',#261,10.);
#72=VECTOR('',#262,10.);
#73=VECTOR('',#263,10.);
#74=VECTOR('',#268,9.525);
#75=VECTOR('',#275,6.25);
#76=VECTOR('',#282,5.9);
#77=VECTOR('',#293,10.);
#78=VECTOR('',#294,10.);
#79=VECTOR('',#295,10.);
#80=VECTOR('',#298,10.);
#81=VECTOR('',#299,10.);
#82=VECTOR('',#302,10.);
#83=VECTOR('',#303,10.);
#84=VECTOR('',#306,10.);
#85=CIRCLE('',#226,10.525);
#86=CIRCLE('',#227,9.525);
#87=CIRCLE('',#228,9.525);
#88=CIRCLE('',#230,6.6);
#89=CIRCLE('',#232,9.525);
#90=CIRCLE('',#233,9.525);
#91=CIRCLE('',#235,5.9);
#92=CIRCLE('',#236,5.9);
#93=CIRCLE('',#238,5.9);
#94=CIRCLE('',#239,5.9);
#95=VERTEX_POINT('',#311);
#96=VERTEX_POINT('',#313);
#97=VERTEX_POINT('',#315);
#98=VERTEX_POINT('',#319);
#99=VERTEX_POINT('',#320);
#100=VERTEX_POINT('',#322);
#101=VERTEX_POINT('',#324);
#102=VERTEX_POINT('',#327);
#103=VERTEX_POINT('',#330);
#104=VERTEX_POINT('',#332);
#105=VERTEX_POINT('',#336);
#106=VERTEX_POINT('',#338);
#107=VERTEX_POINT('',#342);
#108=VERTEX_POINT('',#344);
#109=VERTEX_POINT('',#350);
#110=VERTEX_POINT('',#352);
#111=VERTEX_POINT('',#356);
#112=VERTEX_POINT('',#360);
#113=EDGE_CURVE('',#95,#95,#85,.T.);
#114=EDGE_CURVE('',#95,#96,#53,.T.);
#115=EDGE_CURVE('',#96,#97,#86,.T.);
#116=EDGE_CURVE('',#97,#96,#87,.T.);
#117=EDGE_CURVE('',#98,#99,#54,.T.);
#118=EDGE_CURVE('',#99,#100,#55,.T.);
#119=EDGE_CURVE('',#100,#101,#56,.T.);
#120=EDGE_CURVE('',#101,#98,#57,.T.);
#121=EDGE_CURVE('',#102,#102,#88,.T.);
#122=EDGE_CURVE('',#97,#103,#58,.T.);
#123=EDGE_CURVE('',#104,#103,#89,.T.);
#124=EDGE_CURVE('',#103,#104,#90,.T.);
#125=EDGE_CURVE('',#102,#105,#59,.T.);
#126=EDGE_CURVE('',#105,#106,#91,.T.);
#127=EDGE_CURVE('',#106,#105,#92,.T.);
#128=EDGE_CURVE('',#106,#107,#60,.T.);
#129=EDGE_CURVE('',#108,#107,#93,.T.);
#130=EDGE_CURVE('',#107,#108,#94,.T.);
#131=EDGE_CURVE('',#99,#109,#61,.T.);
#132=EDGE_CURVE('',#110,#109,#62,.T.);
#133=EDGE_CURVE('',#100,#110,#63,.T.);
#134=EDGE_CURVE('',#111,#110,#64,.T.);
#135=EDGE_CURVE('',#101,#111,#65,.T.);
#136=EDGE_CURVE('',#112,#111,#66,.T.);
#137=EDGE_CURVE('',#98,#112,#67,.T.);
#138=EDGE_CURVE('',#109,#112,#68,.T.);
#139=ORIENTED_EDGE('',*,*,#113,.T.);
#140=ORIENTED_EDGE('',*,*,#114,.T.);
#141=ORIENTED_EDGE('',*,*,#115,.T.);
#142=ORIENTED_EDGE('',*,*,#116,.T.);
#143=ORIENTED_EDGE('',*,*,#114,.F.);
#144=ORIENTED_EDGE('',*,*,#117,.T.);
#145=ORIENTED_EDGE('',*,*,#118,.T.);
#146=ORIENTED_EDGE('',*,*,#119,.T.);
#147=ORIENTED_EDGE('',*,*,#120,.T.);
#148=ORIENTED_EDGE('',*,*,#121,.F.);
#149=ORIENTED_EDGE('',*,*,#113,.F.);
#150=ORIENTED_EDGE('',*,*,#115,.F.);
#151=ORIENTED_EDGE('',*,*,#116,.F.);
#152=ORIENTED_EDGE('',*,*,#122,.T.);
#153=ORIENTED_EDGE('',*,*,#123,.F.);
#154=ORIENTED_EDGE('',*,*,#124,.F.);
#155=ORIENTED_EDGE('',*,*,#122,.F.);
#156=ORIENTED_EDGE('',*,*,#121,.T.);
#157=ORIENTED_EDGE('',*,*,#125,.T.);
#158=ORIENTED_EDGE('',*,*,#126,.T.);
#159=ORIENTED_EDGE('',*,*,#127,.T.);
#160=ORIENTED_EDGE('',*,*,#125,.F.);
#161=ORIENTED_EDGE('',*,*,#126,.F.);
#162=ORIENTED_EDGE('',*,*,#127,.F.);
#163=ORIENTED_EDGE('',*,*,#128,.T.);
#164=ORIENTED_EDGE('',*,*,#129,.F.);
#165=ORIENTED_EDGE('',*,*,#130,.F.);
#166=ORIENTED_EDGE('',*,*,#128,.F.);
#167=ORIENTED_EDGE('',*,*,#123,.T.);
#168=ORIENTED_EDGE('',*,*,#124,.T.);
#169=ORIENTED_EDGE('',*,*,#129,.T.);
#170=ORIENTED_EDGE('',*,*,#130,.T.);
#171=ORIENTED_EDGE('',*,*,#118,.F.);
#172=ORIENTED_EDGE('',*,*,#131,.T.);
#173=ORIENTED_EDGE('',*,*,#132,.F.);
#174=ORIENTED_EDGE('',*,*,#133,.F.);
#175=ORIENTED_EDGE('',*,*,#119,.F.);
#176=ORIENTED_EDGE('',*,*,#133,.T.);
#177=ORIENTED_EDGE('',*,*,#134,.F.);
#178=ORIENTED_EDGE('',*,*,#135,.F.);
#179=ORIENTED_EDGE('',*,*,#120,.F.);
#180=ORIENTED_EDGE('',*,*,#135,.T.);
#181=ORIENTED_EDGE('',*,*,#136,.F.);
#182=ORIENTED_EDGE('',*,*,#137,.F.);
#183=ORIENTED_EDGE('',*,*,#117,.F.);
#184=ORIENTED_EDGE('',*,*,#137,.T.);
#185=ORIENTED_EDGE('',*,*,#138,.F.);
#186=ORIENTED_EDGE('',*,*,#131,.F.);
#187=ORIENTED_EDGE('',*,*,#138,.T.);
#188=ORIENTED_EDGE('',*,*,#136,.T.);
#189=ORIENTED_EDGE('',*,*,#134,.T.);
#190=ORIENTED_EDGE('',*,*,#132,.T.);
#191=CONICAL_SURFACE('',#225,10.025,0.785398163397449);
#192=CONICAL_SURFACE('',#234,6.25,0.785398163397449);
#193=ADVANCED_FACE('',(#27),#191,.F.);
#194=ADVANCED_FACE('',(#28,#17,#18),#19,.F.);
#195=ADVANCED_FACE('',(#29),#15,.F.);
#196=ADVANCED_FACE('',(#30),#192,.F.);
#197=ADVANCED_FACE('',(#31),#16,.F.);
#198=ADVANCED_FACE('',(#32),#20,.T.);
#199=ADVANCED_FACE('',(#33),#21,.T.);
#200=ADVANCED_FACE('',(#34),#22,.T.);
#201=ADVANCED_FACE('',(#35),#23,.T.);
#202=ADVANCED_FACE('',(#36),#24,.T.);
#203=ADVANCED_FACE('',(#37),#25,.T.);
#204=ADVANCED_FACE('',(#38),#26,.T.);
#205=CLOSED_SHELL('',(#193,#194,#195,#196,#197,#198,#199,#200,#201,#202,
#203,#204));
#206=DERIVED_UNIT_ELEMENT(#208,1.);
#207=DERIVED_UNIT_ELEMENT(#371,3.);
#208=(
MASS_UNIT()
NAMED_UNIT(*)
SI_UNIT($,.GRAM.)
);
#209=DERIVED_UNIT((#206,#207));
#210=MEASURE_REPRESENTATION_ITEM('density measure',
POSITIVE_RATIO_MEASURE(2.7),#209);
#211=PROPERTY_DEFINITION_REPRESENTATION(#216,#213);
#212=PROPERTY_DEFINITION_REPRESENTATION(#217,#214);
#213=REPRESENTATION('material name',(#215),#368);
#214=REPRESENTATION('density',(#210),#368);
#215=DESCRIPTIVE_REPRESENTATION_ITEM('Aluminum 6061','Aluminum 6061');
#216=PROPERTY_DEFINITION('material property','material name',#378);
#217=PROPERTY_DEFINITION('material property','density of part',#378);
#218=DATE_TIME_ROLE('creation_date');
#219=APPLIED_DATE_AND_TIME_ASSIGNMENT(#220,#218,(#378));
#220=DATE_AND_TIME(#221,#222);
#221=CALENDAR_DATE(2018,14,6);
#222=LOCAL_TIME(22,0,0.,#223);
#223=COORDINATED_UNIVERSAL_TIME_OFFSET(0,0,.BEHIND.);
#224=AXIS2_PLACEMENT_3D('placement',#309,#247,#248);
#225=AXIS2_PLACEMENT_3D('',#310,#249,#250);
#226=AXIS2_PLACEMENT_3D('',#312,#251,#252);
#227=AXIS2_PLACEMENT_3D('',#316,#254,#255);
#228=AXIS2_PLACEMENT_3D('',#317,#256,#257);
#229=AXIS2_PLACEMENT_3D('',#318,#258,#259);
#230=AXIS2_PLACEMENT_3D('',#328,#264,#265);
#231=AXIS2_PLACEMENT_3D('',#329,#266,#267);
#232=AXIS2_PLACEMENT_3D('',#333,#269,#270);
#233=AXIS2_PLACEMENT_3D('',#334,#271,#272);
#234=AXIS2_PLACEMENT_3D('',#335,#273,#274);
#235=AXIS2_PLACEMENT_3D('',#339,#276,#277);
#236=AXIS2_PLACEMENT_3D('',#340,#278,#279);
#237=AXIS2_PLACEMENT_3D('',#341,#280,#281);
#238=AXIS2_PLACEMENT_3D('',#345,#283,#284);
#239=AXIS2_PLACEMENT_3D('',#346,#285,#286);
#240=AXIS2_PLACEMENT_3D('',#347,#287,#288);
#241=AXIS2_PLACEMENT_3D('',#348,#289,#290);
#242=AXIS2_PLACEMENT_3D('',#349,#291,#292);
#243=AXIS2_PLACEMENT_3D('',#355,#296,#297);
#244=AXIS2_PLACEMENT_3D('',#359,#300,#301);
#245=AXIS2_PLACEMENT_3D('',#363,#304,#305);
#246=AXIS2_PLACEMENT_3D('',#365,#307,#308);
#247=DIRECTION('axis',(0.,0.,1.));
#248=DIRECTION('refdir',(1.,0.,0.));
#249=DIRECTION('center_axis',(0.,0.,-1.));
#250=DIRECTION('ref_axis',(1.,0.,0.));
#251=DIRECTION('center_axis',(0.,0.,-1.));
#252=DIRECTION('ref_axis',(1.,0.,0.));
#253=DIRECTION('',(0.707106781186548,-8.65956056235494E-17,0.707106781186547));
#254=DIRECTION('center_axis',(0.,0.,1.));
#255=DIRECTION('ref_axis',(1.,0.,0.));
#256=DIRECTION('center_axis',(0.,0.,1.));
#257=DIRECTION('ref_axis',(1.,0.,0.));
#258=DIRECTION('center_axis',(0.,0.,1.));
#259=DIRECTION('ref_axis',(1.,0.,0.));
#260=DIRECTION('',(1.,0.,0.));
#261=DIRECTION('',(0.,-1.,0.));
#262=DIRECTION('',(-1.,0.,0.));
#263=DIRECTION('',(0.,1.,0.));
#264=DIRECTION('center_axis',(0.,0.,-1.));
#265=DIRECTION('ref_axis',(1.,0.,0.));
#266=DIRECTION('center_axis',(0.,0.,-1.));
#267=DIRECTION('ref_axis',(-1.,0.,0.));
#268=DIRECTION('',(0.,0.,1.));
#269=DIRECTION('center_axis',(0.,0.,-1.));
#270=DIRECTION('ref_axis',(-1.,0.,0.));
#271=DIRECTION('center_axis',(0.,0.,-1.));
#272=DIRECTION('ref_axis',(-1.,0.,0.));
#273=DIRECTION('center_axis',(0.,0.,-1.));
#274=DIRECTION('ref_axis',(1.,0.,0.));
#275=DIRECTION('',(0.707106781186548,-8.65956056235494E-17,0.707106781186547));
#276=DIRECTION('center_axis',(0.,0.,1.));
#277=DIRECTION('ref_axis',(1.,0.,0.));
#278=DIRECTION('center_axis',(0.,0.,1.));
#279=DIRECTION('ref_axis',(1.,0.,0.));
#280=DIRECTION('center_axis',(0.,0.,-1.));
#281=DIRECTION('ref_axis',(-1.,0.,0.));
#282=DIRECTION('',(0.,0.,1.));
#283=DIRECTION('center_axis',(0.,0.,-1.));
#284=DIRECTION('ref_axis',(-1.,0.,0.));
#285=DIRECTION('center_axis',(0.,0.,-1.));
#286=DIRECTION('ref_axis',(-1.,0.,0.));
#287=DIRECTION('center_axis',(0.,0.,-1.));
#288=DIRECTION('ref_axis',(-1.,0.,0.));
#289=DIRECTION('center_axis',(0.,0.,-1.));
#290=DIRECTION('ref_axis',(-1.,0.,0.));
#291=DIRECTION('center_axis',(1.,0.,0.));
#292=DIRECTION('ref_axis',(0.,1.,0.));
#293=DIRECTION('',(0.,0.,1.));
#294=DIRECTION('',(0.,1.,0.));
#295=DIRECTION('',(0.,0.,1.));
#296=DIRECTION('center_axis',(0.,-1.,0.));
#297=DIRECTION('ref_axis',(1.,0.,0.));
#298=DIRECTION('',(1.,0.,0.));
#299=DIRECTION('',(0.,0.,1.));
#300=DIRECTION('center_axis',(-1.,0.,0.));
#301=DIRECTION('ref_axis',(0.,-1.,0.));
#302=DIRECTION('',(0.,-1.,0.));
#303=DIRECTION('',(0.,0.,1.));
#304=DIRECTION('center_axis',(0.,1.,0.));
#305=DIRECTION('ref_axis',(-1.,0.,0.));
#306=DIRECTION('',(-1.,0.,0.));
#307=DIRECTION('center_axis',(0.,0.,1.));
#308=DIRECTION('ref_axis',(1.,0.,0.));
#309=CARTESIAN_POINT('',(0.,0.,0.));
#310=CARTESIAN_POINT('Origin',(-2.46519032881566E-31,-12.,0.5));
#311=CARTESIAN_POINT('',(-10.525,-12.,0.));
#312=CARTESIAN_POINT('Origin',(-2.46519032881566E-31,-12.,0.));
#313=CARTESIAN_POINT('',(-9.525,-12.,1.));
#314=CARTESIAN_POINT('',(-10.025,-12.,0.5));
#315=CARTESIAN_POINT('',(9.525,-12.,1.));
#316=CARTESIAN_POINT('Origin',(-2.46519032881566E-31,-12.,1.));
#317=CARTESIAN_POINT('Origin',(-2.46519032881566E-31,-12.,1.));
#318=CARTESIAN_POINT('Origin',(0.,0.,0.));
#319=CARTESIAN_POINT('',(-12.5,25.,0.));
#320=CARTESIAN_POINT('',(12.5,25.,0.));
#321=CARTESIAN_POINT('',(-12.5,25.,0.));
#322=CARTESIAN_POINT('',(12.5,-25.,0.));
#323=CARTESIAN_POINT('',(12.5,25.,0.));
#324=CARTESIAN_POINT('',(-12.5,-25.,0.));
#325=CARTESIAN_POINT('',(12.5,-25.,0.));
#326=CARTESIAN_POINT('',(-12.5,-25.,0.));
#327=CARTESIAN_POINT('',(-3.1,16.,0.));
#328=CARTESIAN_POINT('Origin',(3.5,16.,0.));
#329=CARTESIAN_POINT('Origin',(-2.46519032881566E-31,-12.,6.));
#330=CARTESIAN_POINT('',(9.525,-12.,12.));
#331=CARTESIAN_POINT('',(9.525,-12.,6.));
#332=CARTESIAN_POINT('',(-9.525,-12.,12.));
#333=CARTESIAN_POINT('Origin',(-2.46519032881566E-31,-12.,12.));
#334=CARTESIAN_POINT('Origin',(-2.46519032881566E-31,-12.,12.));
#335=CARTESIAN_POINT('Origin',(3.5,16.,0.35));
#336=CARTESIAN_POINT('',(-2.4,16.,0.7));
#337=CARTESIAN_POINT('',(-2.75,16.,0.35));
#338=CARTESIAN_POINT('',(9.4,16.,0.7));
#339=CARTESIAN_POINT('Origin',(3.5,16.,0.7));
#340=CARTESIAN_POINT('Origin',(3.5,16.,0.7));
#341=CARTESIAN_POINT('Origin',(3.5,16.,6.));
#342=CARTESIAN_POINT('',(9.4,16.,12.));
#343=CARTESIAN_POINT('',(9.4,16.,6.));
#344=CARTESIAN_POINT('',(-2.4,16.,12.));
#345=CARTESIAN_POINT('Origin',(3.5,16.,12.));
#346=CARTESIAN_POINT('Origin',(3.5,16.,12.));
#347=CARTESIAN_POINT('Origin',(-2.46519032881566E-31,-12.,12.));
#348=CARTESIAN_POINT('Origin',(3.5,16.,12.));
#349=CARTESIAN_POINT('Origin',(12.5,-25.,0.));
#350=CARTESIAN_POINT('',(12.5,25.,15.));
#351=CARTESIAN_POINT('',(12.5,25.,0.));
#352=CARTESIAN_POINT('',(12.5,-25.,15.));
#353=CARTESIAN_POINT('',(12.5,25.,15.));
#354=CARTESIAN_POINT('',(12.5,-25.,0.));
#355=CARTESIAN_POINT('Origin',(-12.5,-25.,0.));
#356=CARTESIAN_POINT('',(-12.5,-25.,15.));
#357=CARTESIAN_POINT('',(12.5,-25.,15.));
#358=CARTESIAN_POINT('',(-12.5,-25.,0.));
#359=CARTESIAN_POINT('Origin',(-12.5,25.,0.));
#360=CARTESIAN_POINT('',(-12.5,25.,15.));
#361=CARTESIAN_POINT('',(-12.5,-25.,15.));
#362=CARTESIAN_POINT('',(-12.5,25.,0.));
#363=CARTESIAN_POINT('Origin',(12.5,25.,0.));
#364=CARTESIAN_POINT('',(-12.5,25.,15.));
#365=CARTESIAN_POINT('Origin',(0.,0.,15.));
#366=UNCERTAINTY_MEASURE_WITH_UNIT(LENGTH_MEASURE(0.01),#370,
'DISTANCE_ACCURACY_VALUE',
'Maximum model space distance between geometric entities at asserted c
onnectivities');
#367=UNCERTAINTY_MEASURE_WITH_UNIT(LENGTH_MEASURE(0.01),#370,
'DISTANCE_ACCURACY_VALUE',
'Maximum model space distance between geometric entities at asserted c
onnectivities');
#368=(
GEOMETRIC_REPRESENTATION_CONTEXT(3)
GLOBAL_UNCERTAINTY_ASSIGNED_CONTEXT((#366))
GLOBAL_UNIT_ASSIGNED_CONTEXT((#370,#373,#372))
REPRESENTATION_CONTEXT('','3D')
);
#369=(
GEOMETRIC_REPRESENTATION_CONTEXT(3)
GLOBAL_UNCERTAINTY_ASSIGNED_CONTEXT((#367))
GLOBAL_UNIT_ASSIGNED_CONTEXT((#370,#373,#372))
REPRESENTATION_CONTEXT('','3D')
);
#370=(
LENGTH_UNIT()
NAMED_UNIT(*)
SI_UNIT(.MILLI.,.METRE.)
);
#371=(
LENGTH_UNIT()
NAMED_UNIT(*)
SI_UNIT(.CENTI.,.METRE.)
);
#372=(
NAMED_UNIT(*)
SI_UNIT($,.STERADIAN.)
SOLID_ANGLE_UNIT()
);
#373=(
NAMED_UNIT(*)
PLANE_ANGLE_UNIT()
SI_UNIT($,.RADIAN.)
);
#374=SHAPE_DEFINITION_REPRESENTATION(#375,#376);
#375=PRODUCT_DEFINITION_SHAPE('',$,#378);
#376=SHAPE_REPRESENTATION('',(#224),#368);
#377=PRODUCT_DEFINITION_CONTEXT('part definition',#382,'design');
#378=PRODUCT_DEFINITION('410 002 00','410 002 00_step',#379,#377);
#379=PRODUCT_DEFINITION_FORMATION('1',$,#384);
#380=PRODUCT_RELATED_PRODUCT_CATEGORY('410 002 00_step',
'410 002 00_step',(#384));
#381=APPLICATION_PROTOCOL_DEFINITION('international standard',
'automotive_design',2009,#382);
#382=APPLICATION_CONTEXT(
'Core Data for Automotive Mechanical Design Process');
#383=PRODUCT_CONTEXT('part definition',#382,'mechanical');
#384=PRODUCT('410 002 00','410 002 00_step',$,(#383));
#385=PRESENTATION_STYLE_ASSIGNMENT((#386));
#386=SURFACE_STYLE_USAGE(.BOTH.,#387);
#387=SURFACE_SIDE_STYLE('',(#388));
#388=SURFACE_STYLE_FILL_AREA(#389);
#389=FILL_AREA_STYLE('',(#390));
#390=FILL_AREA_STYLE_COLOUR('',#391);
#391=COLOUR_RGB('',0.250980392156863,0.250980392156863,0.250980392156863);
ENDSEC;
END-ISO-10303-21;
